Music Tabs and other stuff...

Go down

Music Tabs and other stuff...

Post  molly_autumn on Fri Jun 13, 2008 12:38 am

for the musicians of this board to trade tabs and talk about musical stuff, like their gear...

molly_autumn

Posts : 223
Join date : 2008-06-12
Age : 27
Location : Los Angeles

View user profile http://www.myspace.com/ultimatedumanhead

Back to top Go down

Re: Music Tabs and other stuff...

Post  Youve_got_me_running on Fri Jun 13, 2008 12:42 am

YES!! THANK YOU!
can we post tabs?
avatar
Youve_got_me_running

Posts : 34
Join date : 2008-06-12
Age : 25
Location : VT

View user profile

Back to top Go down

Re: Music Tabs and other stuff...

Post  molly_autumn on Fri Jun 13, 2008 12:44 am

yeah!

molly_autumn

Posts : 223
Join date : 2008-06-12
Age : 27
Location : Los Angeles

View user profile http://www.myspace.com/ultimatedumanhead

Back to top Go down

Re: Music Tabs and other stuff...

Post  Youve_got_me_running on Fri Jun 13, 2008 1:12 am

Good, here's the bass for This Is Everything then!

Just repeat this for the whole song...
G|-------------------------------------|
D|-------------------------------------|
A|---------22222222-4444444444444444|
E|00000000----------------------------|
---------------------------------------------------------------------------------
Back In Your Head bass tab too!

Intro (2x)
G|---------------------|
D|---------------------|
A|----3-11------3-11-1|
E|1-11-----1-11-------|

Silent for the first verse

Chorus (pt 1) (2x)
G|---------------------|-----------------------|
D|---------------------|-----------------------|
A|-----33-1------33-11|-----33-1(1)-----33-11|
E|1-11-----1-11-------|1-11--------1-11------|

Chorus (pt 2) (4x)
G|----------------|
D|7---5------3-0-|
A|--5---3-00-----|
E|----------------|

Verse 2
G|--------------------------------|
D|--------------------------------|
A|5-55-55-55-55-7-3-33-33-33-33|
E|--------------------------------|

G|----------------------------------|
D|----------------------------------|
A|7-5-55-55-55-55/7-8-88-88-88-88|
E|----------------------------------|


Bridge
G|---------------------|-----------------------|
D|---------------------|-----------------------|
A|5-55-8-88-5-55-8-88|-5-55-3-33-5-55-3-33/8|
E|---------------------|-----------------------|

End
G|-------------------------------|
D|-------------------------------|
A|----3-3-1------3-3-1----3-3-1-|
E|1-11-----1-11-----1-11--------|
avatar
Youve_got_me_running

Posts : 34
Join date : 2008-06-12
Age : 25
Location : VT

View user profile

Back to top Go down

Re: Music Tabs and other stuff...

Post  molly_autumn on Fri Jun 13, 2008 2:30 am

awsome! i'll get some tabs up here later. and we can do non Tegan and Sara stuff too

molly_autumn

Posts : 223
Join date : 2008-06-12
Age : 27
Location : Los Angeles

View user profile http://www.myspace.com/ultimatedumanhead

Back to top Go down

Re: Music Tabs and other stuff...

Post  Youve_got_me_running on Fri Jun 13, 2008 4:05 am

okay!
Anyone know the band Damone? I have a guitar tab for their song "Frustrated Unnoticed"
If anyone wants it, I'll post it.
avatar
Youve_got_me_running

Posts : 34
Join date : 2008-06-12
Age : 25
Location : VT

View user profile

Back to top Go down

Re: Music Tabs and other stuff...

Post  oceanplease on Sat Jun 14, 2008 10:24 am

I started playing guitar again after a five/six year break!
(It kind of took a back seat to cello, drums and auxiliary percussion; all of which I played in middle school band)

But I've been itching to play again for the last year-and I just can't resist.

I used to have a Stella... it was a good little guitar and I miss it.
I'm just playing my roommates nameless guitar-and its full size which is huge in my lap.
And I get a bruise on my right hip and on my leg if I'm sitting.
I like to play lying down and sitting more than standing-I play for myself, alone, mostly.
So after a few more paychecks I'm getting a used ovation.
Because it's much better suited for tiny bony people like me, haha.
I'll probably just get an applause or a celebrity-I'm not aiming for legend or adamas, haha.
But, I'm pretty excited for the day when I get a sweet guitar which doesn't bruise me when I play it.

oceanplease

Posts : 1
Join date : 2008-06-14

View user profile

Back to top Go down

Re: Music Tabs and other stuff...

Post  draw_you_a_floorplan on Sat Jun 14, 2008 2:20 pm

bruises from guitars

that sucks lol

mine is actually too small for me i need a new one

_________________
Fresh and Easy = Great Mango Pineapple Orange Smoothies
avatar
draw_you_a_floorplan
Admin

Posts : 281
Join date : 2008-06-11
Age : 30
Location : rancho cucamonga, ca

View user profile

Back to top Go down

Re: Music Tabs and other stuff...

Post  Sponsored content


Sponsored content


Back to top Go down

Back to top

- Similar topics

 
Permissions in this forum:
You cannot reply to topics in this forum